right outta nowhere



Moderators: runny, empty shell, Shihad, Rodger

right outta nowhere

Postby pacifierrock » Thu Mar 12, 2015 5:54 pm

Code: Select all
Right outta nowhere

Tuning: Aadgbe


bass intro


verse

then Phil comes in strumming

------------------------------
------------------------------
--15--15--15---13--13--13-----
------------------------------
--13--13--13---11--11--11-----
------------------------------

Jon

------------------------------
------------------------------
------------------------------
------------------------------
--0-1-1-----------------------
--0-1-1-----------------------

------------------------------
------------------------------
------------------------------
------------------------------
--0-1-2-2--0-1-1--------------
--0-1-2-2--0-1-1--------------

------------------------------
------------------------------
------------------------------
------------------------------
--0-1-2-2---------------------
--0-1-2-2---------------------


Pre chorus

------------------------------
------------------------------
------------------------------
------------------------------
--1-1-1-2-2-2-4-4-4-----------
--1-1-1-2-2-2-4-4-4----------- x2

------------------------------
------------------------------
------------------------------
------------------------------
--0-0-0-----------------------
--0-0-0-----------------------

------------------------------
------------------------------
------------------------------
------------------------------
--1-1-1-2-2-2-4-4-4-----------
--1-1-1-2-2-2-4-4-4----------- x2


Chorus

Jon
------------------------------
------------------------------
------------------------------
------------------------------
---9--6--13--4--9--9--0-------
---9--6--13--4--9--9--0-------

Phil

------------------------------
------------------------------
---11-8--15--6--11-11---------
------------------------------
---9--6--13--4--9--9--0-------
----------------------0-------

both guitars

------------------------------
------------------------------
------------------------------
------------------------------
--1-1-0-1-1-0-1-1-0-1-2-2-----
--1-1-0-1-1-0-1-1-0-1-2-2-----

------------------------------
------------------------------
------------------------------
------------------------------
-0-1-1-0-1-1-0-1-1-0-1-2-2----
-0-1-1-0-1-1-0-1-1-0-1-2-2----

verse 2

Phil plays the same

Jon just palm mutes this with the bass at the start of verse 2

---------------------------------------------------
---------------------------------------------------
---------------------------------------------------
---------------------------------------------------
---------------------------------------------------
-0-1-1-0-1-1-0-1-1-0-1-1-0-1-1-0-1-1-0-1-1-0-1-2-2- x2

then back to jons first verse riff


Chorus 2

Jon
------------------------------
------------------------------
------------------------------
------------------------------
---9--6--13--4--9--6--1--1--4-
---9--6--13--4--9--6--1--1--4-

------------------------------
------------------------------
------------------------------
------------------------------
---9--6--13--4--9--9--0-------
---9--6--13--4--9--9--0-------

Phil
--------------------------------
--------------------------------
---11-8--15--6--11-8--15--15--6-
--------------------------------
---9--6--13--4--9--6--13--13--4-
--------------------------------

------------------------------
------------------------------
---11-8--15--6--11-11---------
------------------------------
---9--6--13--4--9--9--0-------
----------------------0-------


then after second chorus
------------------------------
------------------------------
------------------------------
------------------------------
-1-1--1-1--1-1--1-1--1-1-1-2--
-1-1--1-1--1-1--1-1--1-1-1-2-- etc

its only the place....
------------------------------
------------------------------
------------------------------
------------------------------
--4-4-4-4-3-3-3-3-------------
--4-4-4-4-3-3-3-3-------------

then just repeat it all :)


pacifierrock

fish
 
Posts: 89
Joined: Mon Jun 26, 2006 1:13 am

Return to Shihad Tabs

Who is online

Users browsing this forum: No registered users and 1 guest